  0
SECTION
  2
HEADER
  9
$ACADVER
  1
AC1015
  9
$ACADMAINTVER
 70
     6
  9
$DWGCODEPAGE
  3
ANSI_1254
  9
$INSBASE
 10
0.0
 20
0.0
 30
0.0
  9
$EXTMIN
 10
0.0
 20
0.0
 30
0.0
  9
$EXTMAX
 10
279.4
 20
215.9
 30
0.0
  9
$LIMMIN
 10
0.0
 20
0.0
  9
$LIMMAX
 10
279.4
 20
215.9
  9
$ORTHOMODE
 70
     0
  9
$REGENMODE
 70
     1
  9
$FILLMODE
 70
     1
  9
$QTEXTMODE
 70
     0
  9
$MIRRTEXT
 70
     1
  9
$LTSCALE
 40
1.0
  9
$ATTMODE
 70
     1
  9
$TEXTSIZE
 40
3.5
  9
$TRACEWID
 40
1.0
  9
$TEXTSTYLE
  7
Standard
  9
$CLAYER
  8
0
  9
$CELTYPE
  6
ByLayer
  9
$CECOLOR
 62
   256
  9
$CELTSCALE
 40
1.0
  9
$DISPSILH
 70
     0
  9
$DIMSCALE
 40
1.0
  9
$DIMASZ
 40
3.5
  9
$DIMEXO
 40
1.0
  9
$DIMDLI
 40
3.75
  9
$DIMRND
 40
0.0
  9
$DIMDLE
 40
0.0
  9
$DIMEXE
 40
1.0
  9
$DIMTP
 40
0.0
  9
$DIMTM
 40
0.0
  9
$DIMTXT
 40
3.5
  9
$DIMCEN
 40
2.5
  9
$DIMTSZ
 40
0.0
  9
$DIMTOL
 70
     0
  9
$DIMLIM
 70
     0
  9
$DIMTIH
 70
     1
  9
$DIMTOH
 70
     1
  9
$DIMSE1
 70
     0
  9
$DIMSE2
 70
     0
  9
$DIMTAD
 70
     1
  9
$DIMZIN
 70
     0
  9
$DIMBLK
  1

  9
$DIMASO
 70
     1
  9
$DIMSHO
 70
     1
  9
$DIMPOST
  1

  9
$DIMAPOST
  1

  9
$DIMALT
 70
     0
  9
$DIMALTD
 70
     3
  9
$DIMALTF
 40
0.0393700787
  9
$DIMLFAC
 40
1.0
  9
$DIMTOFL
 70
     1
  9
$DIMTVP
 40
0.0
  9
$DIMTIX
 70
     0
  9
$DIMSOXD
 70
     0
  9
$DIMSAH
 70
     0
  9
$DIMBLK1
  1

  9
$DIMBLK2
  1

  9
$DIMSTYLE
  2
ISO-25
  9
$DIMCLRD
 70
     0
  9
$DIMCLRE
 70
     0
  9
$DIMCLRT
 70
     0
  9
$DIMTFAC
 40
1.0
  9
$DIMGAP
 40
1.524
  9
$DIMJUST
 70
     0
  9
$DIMSD1
 70
     0
  9
$DIMSD2
 70
     0
  9
$DIMTOLJ
 70
     0
  9
$DIMTZIN
 70
     0
  9
$DIMALTZ
 70
     0
  9
$DIMALTTZ
 70
     0
  9
$DIMUPT
 70
     0
  9
$DIMDEC
 70
     2
  9
$DIMTDEC
 70
     2
  9
$DIMALTU
 70
     2
  9
$DIMALTTD
 70
     3
  9
$DIMTXSTY
  7
Standard
  9
$DIMAUNIT
 70
     0
  9
$DIMADEC
 70
     2
  9
$DIMALTRND
 40
0.0
  9
$DIMAZIN
 70
     0
  9
$DIMDSEP
 70
    44
  9
$DIMATFIT
 70
     3
  9
$DIMFRAC
 70
     0
  9
$DIMLDRBLK
  1

  9
$DIMLUNIT
 70
     2
  9
$DIMLWD
 70
    -2
  9
$DIMLWE
 70
    -2
  9
$DIMTMOVE
 70
     0
  9
$LUNITS
 70
     2
  9
$LUPREC
 70
     2
  9
$SKETCHINC
 40
1.0
  9
$FILLETRAD
 40
10.0
  9
$AUNITS
 70
     0
  9
$AUPREC
 70
     2
  9
$MENU
  1
.
  9
$ELEVATION
 40
0.0
  9
$PELEVATION
 40
0.0
  9
$THICKNESS
 40
0.0
  9
$LIMCHECK
 70
     0
  9
$CHAMFERA
 40
0.0
  9
$CHAMFERB
 40
0.0
  9
$CHAMFERC
 40
0.0
  9
$CHAMFERD
 40
0.0
  9
$SKPOLY
 70
     0
  9
$TDCREATE
 40
2458985.632802836
  9
$TDUCREATE
 40
2458985.507802836
  9
$TDUPDATE
 40
2458985.632803136
  9
$TDUUPDATE
 40
2458985.507803136
  9
$TDINDWG
 40
0.0000000116
  9
$TDUSRTIMER
 40
0.0000000116
  9
$USRTIMER
 70
     1
  9
$ANGBASE
 50
0.0
  9
$ANGDIR
 70
     0
  9
$PDMODE
 70
     0
  9
$PDSIZE
 40
-1.0
  9
$PLINEWID
 40
0.0
  9
$SPLFRAME
 70
     0
  9
$SPLINETYPE
 70
     6
  9
$SPLINESEGS
 70
     8
  9
$HANDSEED
  5
CC
  9
$SURFTAB1
 70
     6
  9
$SURFTAB2
 70
     6
  9
$SURFTYPE
 70
     6
  9
$SURFU
 70
     6
  9
$SURFV
 70
     6
  9
$UCSBASE
  2

  9
$UCSNAME
  2

  9
$UCSORG
 10
0.0
 20
0.0
 30
0.0
  9
$UCSXDIR
 10
1.0
 20
0.0
 30
0.0
  9
$UCSYDIR
 10
0.0
 20
1.0
 30
0.0
  9
$UCSORTHOREF
  2

  9
$UCSORTHOVIEW
 70
     0
  9
$UCSORGTOP
 10
0.0
 20
0.0
 30
0.0
  9
$UCSORGBOTTOM
 10
0.0
 20
0.0
 30
0.0
  9
$UCSORGLEFT
 10
0.0
 20
0.0
 30
0.0
  9
$UCSORGRIGHT
 10
0.0
 20
0.0
 30
0.0
  9
$UCSORGFRONT
 10
0.0
 20
0.0
 30
0.0
  9
$UCSORGBACK
 10
0.0
 20
0.0
 30
0.0
  9
$PUCSBASE
  2

  9
$PUCSNAME
  2

  9
$PUCSORG
 10
0.0
 20
0.0
 30
0.0
  9
$PUCSXDIR
 10
1.0
 20
0.0
 30
0.0
  9
$PUCSYDIR
 10
0.0
 20
1.0
 30
0.0
  9
$PUCSORTHOREF
  2

  9
$PUCSORTHOVIEW
 70
     0
  9
$PUCSORGTOP
 10
0.0
 20
0.0
 30
0.0
  9
$PUCSORGBOTTOM
 10
0.0
 20
0.0
 30
0.0
  9
$PUCSORGLEFT
 10
0.0
 20
0.0
 30
0.0
  9
$PUCSORGRIGHT
 10
0.0
 20
0.0
 30
0.0
  9
$PUCSORGFRONT
 10
0.0
 20
0.0
 30
0.0
  9
$PUCSORGBACK
 10
0.0
 20
0.0
 30
0.0
  9
$USERI1
 70
     0
  9
$USERI2
 70
     0
  9
$USERI3
 70
     0
  9
$USERI4
 70
     0
  9
$USERI5
 70
     0
  9
$USERR1
 40
0.0
  9
$USERR2
 40
0.0
  9
$USERR3
 40
0.0
  9
$USERR4
 40
0.0
  9
$USERR5
 40
0.0
  9
$WORLDVIEW
 70
     1
  9
$SHADEDGE
 70
     3
  9
$SHADEDIF
 70
    70
  9
$TILEMODE
 70
     1
  9
$MAXACTVP
 70
    64
  9
$PINSBASE
 10
0.0
 20
0.0
 30
0.0
  9
$PLIMCHECK
 70
     0
  9
$PEXTMIN
 10
1.0000000000E+20
 20
1.0000000000E+20
 30
1.0000000000E+20
  9
$PEXTMAX
 10
-1.0000000000E+20
 20
-1.0000000000E+20
 30
-1.0000000000E+20
  9
$PLIMMIN
 10
0.0
 20
0.0
  9
$PLIMMAX
 10
420.0
 20
297.0
  9
$UNITMODE
 70
     0
  9
$VISRETAIN
 70
     1
  9
$PLINEGEN
 70
     0
  9
$PSLTSCALE
 70
     1
  9
$TREEDEPTH
 70
  3020
  9
$CMLSTYLE
  2
Standard
  9
$CMLJUST
 70
     0
  9
$CMLSCALE
 40
20.0
  9
$PROXYGRAPHICS
 70
     1
  9
$MEASUREMENT
 70
     1
  9
$CELWEIGHT
370
    -1
  9
$ENDCAPS
280
     0
  9
$JOINSTYLE
280
     0
  9
$LWDISPLAY
290
     1
  9
$INSUNITS
 70
     4
  9
$HYPERLINKBASE
  1

  9
$STYLESHEET
  1

  9
$XEDIT
290
     1
  9
$CEPSNTYPE
380
     0
  9
$PSTYLEMODE
290
     1
  9
$FINGERPRINTGUID
  2
{c6b04d7d-298b-4810-b584-68ba1442284b}
  9
$VERSIONGUID
  2
{FAEB1C32-E019-11D5-929B-00C0DF256EC4}
  9
$EXTNAMES
290
     1
  9
$PSVPSCALE
 40
0.0
  9
$OLESTARTUP
290
     0
  0
ENDSEC
  0
SECTION
  2
CLASSES
  0
CLASS
  1
ACDBDICTIONARYWDFLT
  2
AcDbDictionaryWithDefault
  3
ObjectDBX Classes
 90
        0
280
     0
281
     0
  0
CLASS
  1
VISUALSTYLE
  2
AcDbVisualStyle
  3
ObjectDBX Classes
 90
     4095
280
     0
281
     0
  0
CLASS
  1
MATERIAL
  2
AcDbMaterial
  3
ObjectDBX Classes
 90
     1153
280
     0
281
     0
  0
CLASS
  1
SCALE
  2
AcDbScale
  3
ObjectDBX Classes
 90
     1153
280
     0
281
     0
  0
CLASS
  1
TABLESTYLE
  2
AcDbTableStyle
  3
ObjectDBX Classes
 90
     4095
280
     0
281
     0
  0
CLASS
  1
MLEADERSTYLE
  2
AcDbMLeaderStyle
  3
ACDB_MLEADERSTYLE_CLASS
 90
     4095
280
     0
281
     0
  0
CLASS
  1
SUN
  2
AcDbSun
  3
SCENEOE
 90
     1153
280
     0
281
     0
  0
CLASS
  1
ACDBPLACEHOLDER
  2
AcDbPlaceHolder
  3
ObjectDBX Classes
 90
        0
280
     0
281
     0
  0
CLASS
  1
LAYOUT
  2
AcDbLayout
  3
ObjectDBX Classes
 90
        0
280
     0
281
     0
  0
ENDSEC
  0
SECTION
  2
TABLES
  0
TABLE
  2
VPORT
  5
8
330
0
100
AcDbSymbolTable
 70
     1
  0
VPORT
  5
29
330
8
100
AcDbSymbolTableRecord
100
AcDbViewportTableRecord
  2
*Active
 70
     0
 10
0.0
 20
0.0
 11
1.0
 21
1.0
 12
139.7
 22
107.95
 13
0.0
 23
0.0
 14
10.0
 24
10.0
 15
10.0
 25
10.0
 16
0.0
 26
0.0
 36
1.0
 17
0.0
 27
0.0
 37
0.0
 40
215.9
 41
1.2941176471
 42
50.0
 43
0.0
 44
0.0
 50
0.0
 51
0.0
 71
     0
 72
  2000
 73
     1
 74
     3
 75
     0
 76
     0
 77
     0
 78
     0
281
     0
 65
     1
110
0.0
120
0.0
130
0.0
111
1.0
121
0.0
131
0.0
112
0.0
122
1.0
132
0.0
 79
     0
146
0.0
  0
ENDTAB
  0
TABLE
  2
LTYPE
  5
5
330
0
100
AcDbSymbolTable
 70
     6
  0
LTYPE
  5
14
330
5
100
AcDbSymbolTableRecord
100
AcDbLinetypeTableRecord
  2
ByBlock
 70
     0
  3

 72
    65
 73
     0
 40
0.0
  0
LTYPE
  5
15
330
5
100
AcDbSymbolTableRecord
100
AcDbLinetypeTableRecord
  2
ByLayer
 70
     0
  3

 72
    65
 73
     0
 40
0.0
  0
LTYPE
  5
16
330
5
100
AcDbSymbolTableRecord
100
AcDbLinetypeTableRecord
  2
Continuous
 70
     0
  3
Solid line
 72
    65
 73
     0
 40
0.0
  0
LTYPE
  5
6E
330
5
100
AcDbSymbolTableRecord
100
AcDbLinetypeTableRecord
  2
HIDDEN
 70
     0
  3
Hidden __ __ __ __ __ __ __ __ __ __ __ __ __ __
 72
    65
 73
     2
 40
1.905
 49
1.27
 74
     0
 49
-0.635
 74
     0
  0
LTYPE
  5
6F
330
5
100
AcDbSymbolTableRecord
100
AcDbLinetypeTableRecord
  2
PHANTOM
 70
     0
  3
Phantom ______  __  __  ______  __  __  ______
 72
    65
 73
     6
 40
12.7
 49
6.35
 74
     0
 49
-1.27
 74
     0
 49
1.27
 74
     0
 49
-1.27
 74
     0
 49
1.27
 74
     0
 49
-1.27
 74
     0
  0
LTYPE
  5
70
330
5
100
AcDbSymbolTableRecord
100
AcDbLinetypeTableRecord
  2
CENTER
 70
     0
  3
Center ____ _ ____ _ ____ _ ____ _ ____ _ ____
 72
    65
 73
     4
 40
10.16
 49
6.35
 74
     0
 49
-1.27
 74
     0
 49
1.27
 74
     0
 49
-1.27
 74
     0
  0
LTYPE
  5
71
330
5
100
AcDbSymbolTableRecord
100
AcDbLinetypeTableRecord
  2
CENTERX2
 70
     0
  3
Center (2x) ________  __  ________  __  _____
 72
    65
 73
     4
 40
20.32
 49
12.7
 74
     0
 49
-2.54
 74
     0
 49
2.54
 74
     0
 49
-2.54
 74
     0
  0
LTYPE
  5
72
330
5
100
AcDbSymbolTableRecord
100
AcDbLinetypeTableRecord
  2
DOT2
 70
     0
  3
Dot (.5x) ........................................
 72
    65
 73
     2
 40
0.635
 49
0.0
 74
     0
 49
-0.635
 74
     0
  0
ENDTAB
  0
TABLE
  2
LAYER
  5
2
330
0
100
AcDbSymbolTable
 70
    17
  0
LAYER
  5
10
330
2
100
AcDbSymbolTableRecord
100
AcDbLayerTableRecord
  2
0
 70
     0
 62
     7
  6
Continuous
370
    -3
390
F
  0
LAYER
  5
73
330
2
100
AcDbSymbolTableRecord
100
AcDbLayerTableRecord
  2
FORMAT
 70
     0
 62
     7
  6
Continuous
370
    -3
390
F
  0
LAYER
  5
74
330
2
100
AcDbSymbolTableRecord
100
AcDbLayerTableRecord
  2
YARDIMCI_GEOMETRI
 70
     0
 62
    -6
  6
Continuous
290
     0
370
    -3
390
F
  0
LAYER
  5
75
330
2
100
AcDbSymbolTableRecord
100
AcDbLayerTableRecord
  2
SAYFA_CERCEVESI
 70
     0
 62
     7
  6
Continuous
370
    25
390
F
  0
LAYER
  5
76
330
2
100
AcDbSymbolTableRecord
100
AcDbLayerTableRecord
  2
ANTET
 70
     0
 62
     7
  6
Continuous
370
    -3
390
F
  0
LAYER
  5
77
330
2
100
AcDbSymbolTableRecord
100
AcDbLayerTableRecord
  2
OLCU
 70
     0
 62
   150
  6
Continuous
370
    -3
390
F
  0
LAYER
  5
78
330
2
100
AcDbSymbolTableRecord
100
AcDbLayerTableRecord
  2
METIN
 70
     0
 62
    96
  6
Continuous
370
    -3
390
F
  0
LAYER
  5
79
330
2
100
AcDbSymbolTableRecord
100
AcDbLayerTableRecord
  2
BALON
 70
     0
 62
     5
  6
Continuous
370
    -3
390
F
  0
LAYER
  5
7A
330
2
100
AcDbSymbolTableRecord
100
AcDbLayerTableRecord
  2
VURGU
 70
     0
 62
     7
  6
Continuous
370
    -3
390
F
  0
LAYER
  5
7B
330
2
100
AcDbSymbolTableRecord
100
AcDbLayerTableRecord
  2
SILIK
 70
     0
 62
     7
  6
Continuous
370
    -3
390
F
  0
LAYER
  5
7C
330
2
100
AcDbSymbolTableRecord
100
AcDbLayerTableRecord
  2
MODEL
 70
     0
 62
     7
  6
Continuous
370
    -3
390
F
  0
LAYER
  5
7D
330
2
100
AcDbSymbolTableRecord
100
AcDbLayerTableRecord
  2
DETAYLANDıRMA
 70
     0
 62
   190
  6
Continuous
370
    -3
390
F
  0
LAYER
  5
7E
330
2
100
AcDbSymbolTableRecord
100
AcDbLayerTableRecord
  2
TOLERANS
 70
     0
 62
   230
  6
Continuous
370
    -3
390
F
  0
LAYER
  5
7F
330
2
100
AcDbSymbolTableRecord
100
AcDbLayerTableRecord
  2
MERKEZ_CIZGILERI
 70
     0
 62
    30
  6
Continuous
370
    -3
390
F
  0
LAYER
  5
80
330
2
100
AcDbSymbolTableRecord
100
AcDbLayerTableRecord
  2
KESIT-DETAY_CIZGILERI
 70
     0
 62
     7
  6
Continuous
370
    -3
390
F
  0
LAYER
  5
81
330
2
100
AcDbSymbolTableRecord
100
AcDbLayerTableRecord
  2
\U+041E\U+0421\U+0415\U+0412\U+042B\U+0415
 70
     0
 62
     7
  6
Continuous
370
    -3
390
F
  0
LAYER
  5
82
330
2
100
AcDbSymbolTableRecord
100
AcDbLayerTableRecord
  2
\U+0412\U+041E\U+0414\U+042F\U+041D\U+042B\U+0415_\U+0417\U+041D\U+0410\U+041A\U+0418
 70
     0
 62
    11
  6
Continuous
370
    -3
390
F
  0
ENDTAB
  0
TABLE
  2
STYLE
  5
3
330
0
100
AcDbSymbolTable
 70
     1
  0
STYLE
  5
11
330
3
100
AcDbSymbolTableRecord
100
AcDbTextStyleTableRecord
  2
Standard
 70
     0
 40
0.0
 41
1.0
 50
0.0
 71
     0
 42
3.5
  3
txt
  4

  0
ENDTAB
  0
TABLE
  2
VIEW
  5
6
330
0
100
AcDbSymbolTable
 70
     0
  0
ENDTAB
  0
TABLE
  2
UCS
  5
7
330
0
100
AcDbSymbolTable
 70
     0
  0
ENDTAB
  0
TABLE
  2
APPID
  5
9
330
0
100
AcDbSymbolTable
 70
     1
  0
APPID
  5
12
330
9
100
AcDbSymbolTableRecord
100
AcDbRegAppTableRecord
  2
ACAD
 70
     0
  0
ENDTAB
  0
TABLE
  2
DIMSTYLE
  5
A
330
0
100
AcDbSymbolTable
 70
     1
100
AcDbDimStyleTable
  0
DIMSTYLE
105
27
330
A
100
AcDbSymbolTableRecord
100
AcDbDimStyleTableRecord
  2
ISO-25
 70
     0
 41
2.5
 42
0.625
 43
3.75
 44
1.25
 73
     0
 74
     0
 77
     1
 78
     8
140
2.5
141
2.5
143
0.0393700787
147
0.625
171
     3
172
     1
178
     0
271
     2
272
     2
274
     3
278
    44
283
     0
284
     8
340
11
  0
ENDTAB
  0
TABLE
  2
BLOCK_RECORD
  5
1
330
0
100
AcDbSymbolTable
 70
     2
  0
BLOCK_RECORD
  5
1F
330
1
100
AcDbSymbolTableRecord
100
AcDbBlockTableRecord
  2
*Model_Space
340
22
  0
BLOCK_RECORD
  5
1B
330
1
100
AcDbSymbolTableRecord
100
AcDbBlockTableRecord
  2
*Paper_Space
340
1E
  0
BLOCK_RECORD
  5
23
330
1
100
AcDbSymbolTableRecord
100
AcDbBlockTableRecord
  2
*Paper_Space0
340
26
  0
BLOCK_RECORD
  5
87
330
1
100
AcDbSymbolTableRecord
100
AcDbBlockTableRecord
  2
SW_CENTERMARKSYMBOL_0
340
0
102
{BLKREFS
331
92
102
}
  0
ENDTAB
  0
ENDSEC
  0
SECTION
  2
BLOCKS
  0
BLOCK
  5
20
330
1F
100
AcDbEntity
  8
0
100
AcDbBlockBegin
  2
*Model_Space
 70
     0
 10
0.0
 20
0.0
 30
0.0
  3
*Model_Space
  1

  0
ENDBLK
  5
21
330
1F
100
AcDbEntity
  8
0
100
AcDbBlockEnd
  0
BLOCK
  5
1C
330
1B
100
AcDbEntity
 67
     1
  8
0
100
AcDbBlockBegin
  2
*Paper_Space
 70
     0
 10
0.0
 20
0.0
 30
0.0
  3
*Paper_Space
  1

  0
ENDBLK
  5
1D
330
1B
100
AcDbEntity
 67
     1
  8
0
100
AcDbBlockEnd
  0
BLOCK
  5
24
330
23
100
AcDbEntity
  8
0
100
AcDbBlockBegin
  2
*Paper_Space0
 70
     0
 10
0.0
 20
0.0
 30
0.0
  3
*Paper_Space0
  1

  0
ENDBLK
  5
25
330
23
100
AcDbEntity
  8
0
100
AcDbBlockEnd
  0
BLOCK
  5
88
330
87
100
AcDbEntity
  8
0
100
AcDbBlockBegin
  2
SW_CENTERMARKSYMBOL_0
 70
     0
 10
0.0
 20
0.0
 30
0.0
  3
SW_CENTERMARKSYMBOL_0
  1

  0
LINE
  5
8A
330
87
100
AcDbEntity
  8
FORMAT
 62
     0
100
AcDbLine
 10
0.0
 20
0.0
 30
0.0
 11
0.0
 21
2.5
 31
0.0
  0
LINE
  5
8B
330
87
100
AcDbEntity
  8
FORMAT
 62
     0
100
AcDbLine
 10
0.0
 20
0.0
 30
0.0
 11
-2.5
 21
0.0
 31
0.0
  0
LINE
  5
8C
330
87
100
AcDbEntity
  8
FORMAT
 62
     0
100
AcDbLine
 10
0.0
 20
0.0
 30
0.0
 11
0.0
 21
-2.5
 31
0.0
  0
LINE
  5
8D
330
87
100
AcDbEntity
  8
FORMAT
 62
     0
100
AcDbLine
 10
0.0
 20
0.0
 30
0.0
 11
2.5
 21
0.0
 31
0.0
  0
LINE
  5
8E
330
87
100
AcDbEntity
  8
FORMAT
 62
     0
100
AcDbLine
 10
0.0
 20
5.0
 30
0.0
 11
0.0
 21
25.0
 31
0.0
  0
LINE
  5
8F
330
87
100
AcDbEntity
  8
FORMAT
 62
     0
100
AcDbLine
 10
-5.0
 20
0.0
 30
0.0
 11
-25.0
 21
0.0
 31
0.0
  0
LINE
  5
90
330
87
100
AcDbEntity
  8
FORMAT
 62
     0
100
AcDbLine
 10
0.0
 20
-5.0
 30
0.0
 11
0.0
 21
-25.0
 31
0.0
  0
LINE
  5
91
330
87
100
AcDbEntity
  8
FORMAT
 62
     0
100
AcDbLine
 10
5.0
 20
0.0
 30
0.0
 11
25.0
 21
0.0
 31
0.0
  0
ENDBLK
  5
89
330
87
100
AcDbEntity
  8
0
100
AcDbBlockEnd
  0
ENDSEC
  0
SECTION
  2
ENTITIES
  0
CIRCLE
  5
83
330
1F
100
AcDbEntity
  8
0
  6
Continuous
 62
     7
370
    25
100
AcDbCircle
 10
138.5868529085
 20
118.0698355675
 30
0.0
 40
10.0
  0
CIRCLE
  5
84
330
1F
100
AcDbEntity
  8
0
  6
Continuous
 62
     7
370
    25
100
AcDbCircle
 10
138.5868529085
 20
118.0698355675
 30
0.0
 40
7.0
  0
CIRCLE
  5
85
330
1F
100
AcDbEntity
  8
0
  6
Continuous
 62
     7
370
    25
100
AcDbCircle
 10
138.5868529085
 20
118.0698355675
 30
0.0
 40
14.0
  0
CIRCLE
  5
86
330
1F
100
AcDbEntity
  8
0
  6
Continuous
 62
     7
370
    25
100
AcDbCircle
 10
138.5868529085
 20
118.0698355675
 30
0.0
 40
22.5
  0
INSERT
  5
92
330
1F
100
AcDbEntity
  8
FORMAT
 62
     7
100
AcDbBlockReference
  2
SW_CENTERMARKSYMBOL_0
 10
138.5868529085
 20
118.0698355675
 30
0.0
  0
LINE
  5
93
330
1F
100
AcDbEntity
  8
0
  6
Continuous
 62
     7
370
    25
100
AcDbLine
 10
161.0868529085
 20
158.8760762355
 30
0.0
 11
161.0868529085
 21
165.8760762355
 31
0.0
  0
LINE
  5
94
330
1F
100
AcDbEntity
  8
0
  6
Continuous
 62
     7
370
    25
100
AcDbLine
 10
116.0868529085
 20
165.8760762355
 30
0.0
 11
116.0868529085
 21
158.8760762355
 31
0.0
  0
LINE
  5
95
330
1F
100
AcDbEntity
  8
0
  6
Continuous
 62
     7
370
    25
100
AcDbLine
 10
152.5868529085
 20
165.8760762355
 30
0.0
 11
148.5868529085
 21
183.8760762355
 31
0.0
  0
LINE
  5
96
330
1F
100
AcDbEntity
  8
0
  6
Continuous
 62
     7
370
    25
100
AcDbLine
 10
128.5868529085
 20
183.8760762355
 30
0.0
 11
124.5868529085
 21
165.8760762355
 31
0.0
  0
LINE
  5
97
330
1F
100
AcDbEntity
  8
0
  6
Continuous
 62
     7
370
    25
100
AcDbLine
 10
148.5868529085
 20
183.8760762355
 30
0.0
 11
148.5868529085
 21
238.8760762355
 31
0.0
  0
LINE
  5
98
330
1F
100
AcDbEntity
  8
0
  6
Continuous
 62
     7
370
    25
100
AcDbLine
 10
128.5868529085
 20
238.8760762355
 30
0.0
 11
128.5868529085
 21
183.8760762355
 31
0.0
  0
LINE
  5
99
330
1F
100
AcDbEntity
  8
0
  6
Continuous
 62
     7
370
    25
100
AcDbLine
 10
161.0868529085
 20
158.8760762355
 30
0.0
 11
116.0868529085
 21
158.8760762355
 31
0.0
  0
LINE
  5
9A
330
1F
100
AcDbEntity
  8
0
  6
Continuous
 62
     7
370
    25
100
AcDbLine
 10
161.0868529085
 20
165.8760762355
 30
0.0
 11
116.0868529085
 21
165.8760762355
 31
0.0
  0
LINE
  5
9B
330
1F
100
AcDbEntity
  8
0
  6
Continuous
 62
     7
370
    25
100
AcDbLine
 10
148.5868529085
 20
183.8760762355
 30
0.0
 11
128.5868529085
 21
183.8760762355
 31
0.0
  0
LINE
  5
9C
330
1F
100
AcDbEntity
  8
0
  6
Continuous
 62
     7
370
    25
100
AcDbLine
 10
148.5868529085
 20
238.8760762355
 30
0.0
 11
128.5868529085
 21
238.8760762355
 31
0.0
  0
LINE
  5
9D
330
1F
100
AcDbEntity
  8
0
  6
Continuous
 62
     7
370
    25
100
AcDbLine
 10
259.355240513
 20
140.5698355675
 30
0.0
 11
252.355240513
 21
140.5698355675
 31
0.0
  0
LINE
  5
9E
330
1F
100
AcDbEntity
  8
0
  6
Continuous
 62
     7
370
    25
100
AcDbLine
 10
252.355240513
 20
95.5698355675
 30
0.0
 11
259.355240513
 21
95.5698355675
 31
0.0
  0
LINE
  5
9F
330
1F
100
AcDbEntity
  8
0
  6
Continuous
 62
     7
370
    25
100
AcDbLine
 10
252.355240513
 20
132.0698355675
 30
0.0
 11
234.355240513
 21
128.0698355675
 31
0.0
  0
LINE
  5
A0
330
1F
100
AcDbEntity
  8
0
  6
Continuous
 62
     7
370
    25
100
AcDbLine
 10
234.355240513
 20
108.0698355675
 30
0.0
 11
252.355240513
 21
104.0698355675
 31
0.0
  0
LINE
  5
A1
330
1F
100
AcDbEntity
  8
0
  6
Continuous
 62
     7
370
    25
100
AcDbLine
 10
234.355240513
 20
128.0698355675
 30
0.0
 11
179.355240513
 21
128.0698355675
 31
0.0
  0
LINE
  5
A2
330
1F
100
AcDbEntity
  8
0
  6
Continuous
 62
     7
370
    25
100
AcDbLine
 10
179.355240513
 20
108.0698355675
 30
0.0
 11
234.355240513
 21
108.0698355675
 31
0.0
  0
LINE
  5
A3
330
1F
100
AcDbEntity
  8
0
  6
Continuous
 62
     7
370
    25
100
AcDbLine
 10
259.355240513
 20
140.5698355675
 30
0.0
 11
259.355240513
 21
95.5698355675
 31
0.0
  0
LINE
  5
A4
330
1F
100
AcDbEntity
  8
0
  6
Continuous
 62
     7
370
    25
100
AcDbLine
 10
252.355240513
 20
140.5698355675
 30
0.0
 11
252.355240513
 21
95.5698355675
 31
0.0
  0
LINE
  5
A5
330
1F
100
AcDbEntity
  8
0
  6
Continuous
 62
     7
370
    25
100
AcDbLine
 10
234.355240513
 20
128.0698355675
 30
0.0
 11
234.355240513
 21
108.0698355675
 31
0.0
  0
LINE
  5
A6
330
1F
100
AcDbEntity
  8
0
  6
Continuous
 62
     7
370
    25
100
AcDbLine
 10
179.355240513
 20
128.0698355675
 30
0.0
 11
179.355240513
 21
108.0698355675
 31
0.0
  0
LINE
  5
A7
330
1F
100
AcDbEntity
  8
0
  6
Continuous
 62
     7
370
    25
100
AcDbLine
 10
18.8374863087
 20
95.5698355675
 30
0.0
 11
25.8374863087
 21
95.5698355675
 31
0.0
  0
LINE
  5
A8
330
1F
100
AcDbEntity
  8
0
  6
Continuous
 62
     7
370
    25
100
AcDbLine
 10
25.8374863087
 20
140.5698355675
 30
0.0
 11
18.8374863087
 21
140.5698355675
 31
0.0
  0
LINE
  5
A9
330
1F
100
AcDbEntity
  8
0
  6
Continuous
 62
     7
370
    25
100
AcDbLine
 10
25.8374863087
 20
104.0698355675
 30
0.0
 11
43.8374863087
 21
108.0698355675
 31
0.0
  0
LINE
  5
AA
330
1F
100
AcDbEntity
  8
0
  6
Continuous
 62
     7
370
    25
100
AcDbLine
 10
43.8374863087
 20
128.0698355675
 30
0.0
 11
25.8374863087
 21
132.0698355675
 31
0.0
  0
LINE
  5
AB
330
1F
100
AcDbEntity
  8
0
  6
Continuous
 62
     7
370
    25
100
AcDbLine
 10
43.8374863087
 20
108.0698355675
 30
0.0
 11
98.8374863087
 21
108.0698355675
 31
0.0
  0
LINE
  5
AC
330
1F
100
AcDbEntity
  8
0
  6
Continuous
 62
     7
370
    25
100
AcDbLine
 10
98.8374863087
 20
128.0698355675
 30
0.0
 11
43.8374863087
 21
128.0698355675
 31
0.0
  0
LINE
  5
AD
330
1F
100
AcDbEntity
  8
0
  6
Continuous
 62
     7
370
    25
100
AcDbLine
 10
18.8374863087
 20
118.0698355675
 30
0.0
 11
18.8374863087
 21
140.5698355675
 31
0.0
  0
LINE
  5
AE
330
1F
100
AcDbEntity
  8
0
  6
Continuous
 62
     7
370
    25
100
AcDbLine
 10
18.8374863087
 20
95.5698355675
 30
0.0
 11
18.8374863087
 21
118.0698355675
 31
0.0
  0
LINE
  5
AF
330
1F
100
AcDbEntity
  8
0
  6
Continuous
 62
     7
370
    25
100
AcDbLine
 10
25.8374863087
 20
118.0698355675
 30
0.0
 11
25.8374863087
 21
140.5698355675
 31
0.0
  0
LINE
  5
B0
330
1F
100
AcDbEntity
  8
0
  6
Continuous
 62
     7
370
    25
100
AcDbLine
 10
25.8374863087
 20
95.5698355675
 30
0.0
 11
25.8374863087
 21
118.0698355675
 31
0.0
  0
LINE
  5
B1
330
1F
100
AcDbEntity
  8
0
  6
Continuous
 62
     7
370
    25
100
AcDbLine
 10
43.8374863087
 20
118.0698355675
 30
0.0
 11
43.8374863087
 21
128.0698355675
 31
0.0
  0
LINE
  5
B2
330
1F
100
AcDbEntity
  8
0
  6
Continuous
 62
     7
370
    25
100
AcDbLine
 10
43.8374863087
 20
108.0698355675
 30
0.0
 11
43.8374863087
 21
118.0698355675
 31
0.0
  0
LINE
  5
B3
330
1F
100
AcDbEntity
  8
0
  6
Continuous
 62
     7
370
    25
100
AcDbLine
 10
98.8374863087
 20
118.0698355675
 30
0.0
 11
98.8374863087
 21
128.0698355675
 31
0.0
  0
LINE
  5
B4
330
1F
100
AcDbEntity
  8
0
  6
Continuous
 62
     7
370
    25
100
AcDbLine
 10
98.8374863087
 20
108.0698355675
 30
0.0
 11
98.8374863087
 21
118.0698355675
 31
0.0
  0
LINE
  5
B5
330
1F
100
AcDbEntity
  8
0
  6
Continuous
 62
     7
370
    25
100
AcDbLine
 10
116.0868529085
 20
80.0444867399
 30
0.0
 11
116.0868529085
 21
73.0444867399
 31
0.0
  0
LINE
  5
B6
330
1F
100
AcDbEntity
  8
0
  6
Continuous
 62
     7
370
    25
100
AcDbLine
 10
161.0868529085
 20
73.0444867399
 30
0.0
 11
161.0868529085
 21
80.0444867399
 31
0.0
  0
LINE
  5
B7
330
1F
100
AcDbEntity
  8
0
  6
Continuous
 62
     7
370
    25
100
AcDbLine
 10
124.5868529085
 20
73.0444867399
 30
0.0
 11
128.5868529085
 21
55.0444867399
 31
0.0
  0
LINE
  5
B8
330
1F
100
AcDbEntity
  8
0
  6
Continuous
 62
     7
370
    25
100
AcDbLine
 10
148.5868529085
 20
55.0444867399
 30
0.0
 11
152.5868529085
 21
73.0444867399
 31
0.0
  0
LINE
  5
B9
330
1F
100
AcDbEntity
  8
0
  6
Continuous
 62
     7
370
    25
100
AcDbLine
 10
128.5868529085
 20
55.0444867399
 30
0.0
 11
128.5868529085
 21
0.0444867399
 31
0.0
  0
LINE
  5
BA
330
1F
100
AcDbEntity
  8
0
  6
Continuous
 62
     7
370
    25
100
AcDbLine
 10
148.5868529085
 20
0.0444867399
 30
0.0
 11
148.5868529085
 21
55.0444867399
 31
0.0
  0
LINE
  5
BB
330
1F
100
AcDbEntity
  8
0
  6
Continuous
 62
     7
370
    25
100
AcDbLine
 10
116.0868529085
 20
80.0444867399
 30
0.0
 11
161.0868529085
 21
80.0444867399
 31
0.0
  0
LINE
  5
BC
330
1F
100
AcDbEntity
  8
0
  6
Continuous
 62
     7
370
    25
100
AcDbLine
 10
116.0868529085
 20
73.0444867399
 30
0.0
 11
161.0868529085
 21
73.0444867399
 31
0.0
  0
LINE
  5
BD
330
1F
100
AcDbEntity
  8
0
  6
Continuous
 62
     7
370
    25
100
AcDbLine
 10
128.5868529085
 20
55.0444867399
 30
0.0
 11
148.5868529085
 21
55.0444867399
 31
0.0
  0
LINE
  5
BE
330
1F
100
AcDbEntity
  8
0
  6
Continuous
 62
     7
370
    25
100
AcDbLine
 10
128.5868529085
 20
0.0444867399
 30
0.0
 11
148.5868529085
 21
0.0444867399
 31
0.0
  0
LINE
  5
BF
330
1F
100
AcDbEntity
  8
0
  6
Continuous
 62
     7
370
    25
100
AcDbLine
 10
211.7675345213
 20
61.734236018
 30
0.0
 11
186.0992881302
 21
36.6812406437
 31
0.0
  0
LINE
  5
C0
330
1F
100
AcDbEntity
  8
0
  6
Continuous
 62
     7
370
    25
100
AcDbLine
 10
200.0688513032
 20
22.3686131856
 30
0.0
 11
225.7370976943
 21
47.4216085598
 31
0.0
  0
LINE
  5
C1
330
1F
100
AcDbEntity
  8
0
  6
Continuous
 62
     7
370
    25
100
AcDbLine
 10
215.7440097774
 20
70.5408563329
 30
0.0
 11
211.0547096591
 21
61.0384970998
 31
0.0
  0
LINE
  5
C2
330
1F
100
AcDbEntity
  8
0
  6
Continuous
 62
     7
370
    25
100
AcDbLine
 10
225.0242728321
 20
46.7258696417
 30
0.0
 11
234.6375822797
 21
51.1832958115
 31
0.0
  0
LINE
  5
C3
330
1F
100
AcDbEntity
  8
0
  6
Continuous
 62
     7
370
    25
100
AcDbLine
 10
214.7039422614
 20
82.0673533494
 30
0.0
 11
211.4370745389
 21
78.8787903018
 31
0.0
  0
LINE
  5
C4
330
1F
100
AcDbEntity
  8
0
  6
Continuous
 62
     7
370
    25
100
AcDbLine
 10
242.8685916782
 20
46.675378521
 30
0.0
 11
246.1354594007
 21
49.8639415686
 31
0.0
  0
LWPOLYLINE
  5
C5
330
1F
100
AcDbEntity
  8
0
  6
Continuous
 62
     7
370
    25
100
AcDbPolyline
 90
       76
 70
   128
 43
0.0
 10
184.2398884999
 20
31.9285858615
 10
184.2709062883
 20
32.6374150022
 10
184.3637420858
 20
33.3244122754
 10
184.5177447161
 20
33.9847588886
 10
184.7318339615
 20
34.6138229849
 10
185.0045081395
 20
35.2071921317
 10
185.3338546369
 20
35.7607042707
 10
185.7175633245
 20
36.2704769119
 10
186.1529427617
 20
36.7329343665
 10
186.6369390744
 20
37.1448328279
 10
187.1661573764
 20
37.5032831241
 10
187.7368855813
 20
37.805770984
 10
188.3451204411
 20
38.0501746725
 10
188.9865956251
 20
38.2347798733
 10
189.6568116458
 20
38.3582917137
 10
190.3510674194
 20
38.4198438468
 10
191.0644932404
 20
38.4190045286
 10
191.7920849394
 20
38.3557796463
 10
192.5287389833
 20
38.2306126771
 10
193.2692882732
 20
38.0443815772
 10
194.0085383881
 20
37.7983926242
 10
194.7413040195
 20
37.4943712536
 10
195.462445343
 20
37.1344499571
 10
196.1669040703
 20
36.7211533238
 10
196.8497389296
 20
36.2573803328
 10
197.5061603251
 20
35.7463840183
 10
198.1315639322
 20
35.1917486523
 10
198.7215629939
 20
34.5973646034
 10
199.2720190909
 20
33.9674010487
 10
199.7790711691
 20
33.3062767299
 10
200.2391626224
 20
32.618628959
 10
200.6490662399
 20
31.9092810911
 10
201.0059068422
 20
31.1832086918
 10
201.307181449
 20
30.4455046373
 10
201.5507768352
 20
29.7013433915
 10
201.7349843543
 20
28.9559447109
 10
201.8585119229
 20
28.2145370316
 10
201.9204930839
 20
27.4823207958
 10
201.9204930839
 20
26.7644319744
 10
201.8585119229
 20
26.0659060415
 10
201.7349843543
 20
25.3916426548
 10
201.5507768352
 20
24.7463712874
 10
201.307181449
 20
24.1346180543
 10
201.0059068422
 20
23.560673965
 10
200.6490662399
 20
23.0285648248
 10
200.2391626224
 20
22.542022997
 10
199.7790711691
 20
22.104461223
 10
199.2720190909
 20
21.7189486842
 10
198.7215629939
 20
21.3881894741
 10
198.1315639322
 20
21.1145036309
 10
197.5061603251
 20
20.8998108642
 10
196.8497389296
 20
20.7456170895
 10
196.1669040703
 20
20.6530038652
 10
195.462445343
 20
20.6226208067
 10
194.7413040195
 20
20.6546810292
 10
194.0085383881
 20
20.7489596533
 10
193.2692882732
 20
20.9047953823
 10
192.5287389833
 20
21.1210951404
 10
191.7920849394
 20
21.3963417402
 10
191.0644932404
 20
21.7286045247
 10
190.3510674194
 20
22.115552909
 10
189.6568116458
 20
22.5544727284
 10
188.9865956251
 20
23.0422852757
 10
188.3451204411
 20
23.5755688963
 10
187.7368855813
 20
24.1505829887
 10
187.1661573764
 20
24.7632942424
 10
186.6369390744
 20
25.409404928
 10
186.1529427617
 20
26.0843830434
 10
185.7175633245
 20
26.7834941019
 10
185.3338546369
 20
27.501834342
 10
185.0045081395
 20
28.2343651229
 10
184.7318339615
 20
28.9759482674
 10
184.5177447161
 20
29.7213821027
 10
184.3637420858
 20
30.4654379461
 10
184.2709062883
 20
31.2028967803
 10
184.2398884999
 20
31.9285858615
  0
LWPOLYLINE
  5
C6
330
1F
100
AcDbEntity
  8
0
  6
Continuous
 62
     7
370
    25
100
AcDbPolyline
 90
       63
 70
   128
 43
0.0
 10
186.8931428649
 20
31.2074881775
 10
186.9249065085
 20
31.8058827421
 10
187.0198715013
 20
32.3808716133
 10
187.1770633739
 20
32.9265546271
 10
187.3948691251
 20
33.4373323375
 10
187.6710537731
 20
33.907963474
 10
188.0027832896
 20
34.3336187241
 10
188.3866536809
 20
34.7099302891
 10
188.8187259174
 20
35.033036703
 10
189.2945663532
 20
35.2996224569
 10
189.8092922215
 20
35.50695202
 10
190.3576217385
 20
35.6528979106
 10
190.9339283011
 20
35.7359625263
 10
191.5322982243
 20
35.7552935118
 10
192.1465914228
 20
35.710692505
 10
192.7705044173
 20
35.6026171725
 10
193.3976350161
 20
35.4321765135
 10
194.0215480105
 20
35.2011194799
 10
194.6358412091
 20
34.9118170294
 10
195.2342111323
 20
34.5672377967
 10
195.8105176949
 20
34.1709176311
 10
196.3588472118
 20
33.7269233137
 10
196.8735730801
 20
33.239810827
 10
197.349413516
 20
32.7145786043
 10
197.7814857524
 20
32.156616239
 10
198.1653561438
 20
31.5716491799
 10
198.4970856603
 20
30.9656799808
 10
198.7732703083
 20
30.3449267056
 10
198.9910760594
 20
29.7157591229
 10
199.1482679321
 20
29.0846333435
 10
199.2432329248
 20
28.4580255719
 10
199.2749965684
 20
27.8423656519
 10
199.2432329248
 20
27.2439710873
 10
199.1482679321
 20
26.6689822161
 10
198.9910760594
 20
26.1232992022
 10
198.7732703083
 20
25.6125214918
 10
198.4970856603
 20
25.1418903554
 10
198.1653561438
 20
24.7162351052
 10
197.7814857524
 20
24.3399235402
 10
197.349413516
 20
24.0168171263
 10
196.8735730801
 20
23.7502313725
 10
196.3588472118
 20
23.5429018093
 10
195.8105176949
 20
23.3969559187
 10
195.2342111323
 20
23.313891303
 10
194.6358412091
 20
23.2945603175
 10
194.0215480105
 20
23.3391613244
 10
193.3976350161
 20
23.4472366569
 10
192.7705044173
 20
23.6176773158
 10
192.1465914228
 20
23.8487343494
 10
191.5322982243
 20
24.1380367999
 10
190.9339283011
 20
24.4826160326
 10
190.3576217385
 20
24.8789361982
 10
189.8092922215
 20
25.3229305157
 10
189.2945663532
 20
25.8100430024
 10
188.8187259174
 20
26.3352752251
 10
188.3866536809
 20
26.8932375904
 10
188.0027832896
 20
27.4782046494
 10
187.6710537731
 20
28.0841738485
 10
187.3948691251
 20
28.7049271237
 10
187.1770633739
 20
29.3340947064
 10
187.0198715013
 20
29.9652204859
 10
186.9249065085
 20
30.5918282574
 10
186.8931428649
 20
31.2074881775
  0
LWPOLYLINE
  5
C7
330
1F
100
AcDbEntity
  8
0
  6
Continuous
 62
     7
370
    25
100
AcDbPolyline
 90
       40
 70
   128
 43
0.0
 10
211.7675345213
 20
61.734236018
 10
211.8211891528
 20
61.7859297408
 10
212.3051854656
 20
62.1978282021
 10
212.8344037675
 20
62.5562784983
 10
213.4051319725
 20
62.8587663582
 10
214.0133668322
 20
63.1031700467
 10
214.6548420162
 20
63.2877752476
 10
215.3250580369
 20
63.411287088
 10
216.0193138105
 20
63.472839221
 10
216.7327396316
 20
63.4719999028
 10
217.4603313305
 20
63.4087750205
 10
218.1969853744
 20
63.2836080513
 10
218.9375346644
 20
63.0973769515
 10
219.6767847793
 20
62.8513879984
 10
220.4095504107
 20
62.5473666278
 10
221.1306917341
 20
62.1874453313
 10
221.8351504615
 20
61.774148698
 10
222.5179853208
 20
61.310375707
 10
223.1744067162
 20
60.7993793925
 10
223.7998103233
 20
60.2447440265
 10
224.3898093851
 20
59.6503599777
 10
224.9402654821
 20
59.020396423
 10
225.4473175602
 20
58.3592721041
 10
225.9074090135
 20
57.6716243332
 10
226.317312631
 20
56.9622764653
 10
226.6741532334
 20
56.236204066
 10
226.9754278401
 20
55.4985000115
 10
227.2190232264
 20
54.7543387657
 10
227.4032307455
 20
54.0089400851
 10
227.5267583141
 20
53.2675324058
 10
227.588739475
 20
52.5353161701
 10
227.588739475
 20
51.8174273486
 10
227.5267583141
 20
51.1189014158
 10
227.4032307455
 20
50.444638029
 10
227.2190232264
 20
49.7993666616
 10
226.9754278401
 20
49.1876134286
 10
226.6741532334
 20
48.6136693392
 10
226.317312631
 20
48.081560199
 10
225.9074090135
 20
47.5950183712
 10
225.7370976943
 20
47.4216085598
  0
LWPOLYLINE
  5
C8
330
1F
100
AcDbEntity
  8
0
  6
Continuous
 62
     7
370
    25
100
AcDbPolyline
 90
       53
 70
   128
 43
0.0
 10
215.7440097774
 20
70.5408563329
 10
215.8899028181
 20
70.8232298441
 10
216.2855402611
 20
71.4817335937
 10
216.7365549375
 20
72.0958804465
 10
217.2406485798
 20
72.6625408507
 10
217.7952524425
 20
73.1788272349
 10
218.3975403912
 20
73.6421087219
 10
219.0444433047
 20
74.0500245355
 10
219.7326647141
 20
74.4004960302
 10
220.4586976007
 20
74.6917372836
 10
221.2188422675
 20
74.9222641971
 10
222.0092251914
 20
75.0909020584
 10
222.8258187622
 20
75.1967915274
 10
223.6644618063
 20
75.2393930159
 10
224.5208807909
 20
75.2184894363
 10
225.3907116012
 20
75.1341873086
 10
226.2695217789
 20
74.986916217
 10
227.1528331086
 20
74.7774266212
 10
228.0361444383
 20
74.5067860323
 10
228.9149546159
 20
74.1763735726
 10
229.7847854263
 20
73.7878729483
 10
230.6412044109
 20
73.3432638695
 10
231.479847455
 20
72.8448119621
 10
232.2964410258
 20
72.2950572229
 10
233.0868239497
 20
71.696801076
 10
233.8469686164
 20
71.0530920975
 10
234.5730015031
 20
70.3672104809
 10
235.2612229124
 20
69.6426513216
 10
235.908125826
 20
68.8831068071
 10
236.5104137747
 20
68.0924474021
 10
237.0650176373
 20
67.2747021257
 10
237.5691112796
 20
66.4340380204
 10
238.020125956
 20
65.5747389177
 10
238.4157633991
 20
64.7011836089
 10
238.754007531
 20
63.8178235317
 10
239.0331347374
 20
62.9291600865
 10
239.2517226499
 20
62.0397216985
 10
239.4086573945
 20
61.1540407418
 10
239.5031392679
 20
60.2766304437
 10
239.5346868121
 20
59.4119618858
 10
239.5031392679
 20
58.564441221
 10
239.4086573945
 20
57.7383872202
 10
239.2517226499
 20
56.9380092653
 10
239.0331347374
 20
56.167385899
 10
238.754007531
 20
55.4304440412
 10
238.4157633991
 20
54.7309389787
 10
238.020125956
 20
54.072435229
 10
237.5691112796
 20
53.4582883763
 10
237.0650176373
 20
52.891627972
 10
236.5104137747
 20
52.3753415879
 10
235.908125826
 20
51.9120601009
 10
235.2612229124
 20
51.5041442873
 10
234.6375822797
 20
51.1832958115
  0
LWPOLYLINE
  5
C9
330
1F
100
AcDbEntity
  8
0
  6
Continuous
 62
     7
370
    25
100
AcDbPolyline
 90
       58
 70
   128
 43
0.0
 10
214.7039422614
 20
82.0673533494
 10
214.8617173793
 20
82.2187630796
 10
215.5818633656
 20
82.8495899407
 10
216.3486946781
 20
83.4272936723
 10
217.1597985818
 20
83.9500566047
 10
218.0126230436
 20
84.4162339323
 10
218.9044847623
 20
84.8243588889
 10
219.832577611
 20
85.1731473622
 10
220.7939814661
 20
85.4615019347
 10
221.7856713956
 20
85.6885153363
 10
222.804527176
 20
85.8534732988
 10
223.84734311
 20
85.9558568034
 10
224.910838113
 20
85.9953437138
 10
225.9916660361
 20
85.9718097894
 10
227.0864261949
 20
85.8853290768
 10
228.191674069
 20
85.7361736763
 10
229.3039321395
 20
85.5248128858
 10
230.4197008311
 20
85.2519117248
 10
231.5354695227
 20
84.9183288411
 10
232.6477275932
 20
84.5251138101
 10
233.7529754672
 20
84.0735038315
 10
234.8477356261
 20
83.5649198375
 10
235.9285635492
 20
83.0009620215
 10
236.9920585522
 20
82.3834048034
 10
238.0348744862
 20
81.7141912468
 10
239.0537302666
 20
80.9954269449
 10
240.045420196
 20
80.2293733964
 10
241.0068240512
 20
79.4184408889
 10
241.9349168999
 20
78.5651809163
 10
242.8267786186
 20
77.6722781501
 10
243.6796030804
 20
76.7425419926
 10
244.490706984
 20
75.7788977379
 10
245.2575382966
 20
74.7843773673
 10
245.9776842829
 20
73.7621100097
 10
246.6488790975
 20
72.7153120966
 10
247.2690109129
 20
71.6472772414
 10
247.8361285653
 20
70.5613658768
 10
248.3484476925
 20
69.4609946819
 10
248.8043563491
 20
68.3496258315
 10
249.2024200778
 20
67.2307561031
 10
249.5413864227
 20
66.1079058749
 10
249.8201888705
 20
64.984608049
 10
250.0379502054
 20
63.8643969361
 10
250.1939852697
 20
62.7507971348
 10
250.2878031194
 20
61.6473124419
 10
250.3191085688
 20
60.5574148286
 10
250.2878031194
 20
59.4845335161
 10
250.1939852697
 20
58.4320441857
 10
250.0379502054
 20
57.4032583585
 10
249.8201888705
 20
56.4014129751
 10
249.5413864227
 20
55.4296602119
 10
249.2024200778
 20
54.4910575624
 10
248.8043563491
 20
53.588558218
 10
248.3484476925
 20
52.7250017754
 10
247.8361285653
 20
51.9031053027
 10
247.2690109129
 20
51.1254547902
 10
246.6488790975
 20
50.3944970143
 10
246.1354594007
 20
49.8639415686
  0
LWPOLYLINE
  5
CA
330
1F
100
AcDbEntity
  8
0
  6
Continuous
 62
     7
370
    25
100
AcDbPolyline
 90
       89
 70
   128
 43
0.0
 10
207.2534253708
 20
68.1853170418
 10
207.2847308202
 20
69.2581983543
 10
207.3785486699
 20
70.3106876846
 10
207.5345837343
 20
71.3394735119
 10
207.7523450692
 20
72.3413188953
 10
208.0311475169
 20
73.3130716585
 10
208.3701138619
 20
74.251674308
 10
208.7681775906
 20
75.1541736524
 10
209.2240862472
 20
76.017730095
 10
209.7364053744
 20
76.8396265677
 10
210.3035230267
 20
77.6172770801
 10
210.9236548422
 20
78.3482348561
 10
211.5948496567
 20
79.030200032
 10
212.3149956431
 20
79.6610268931
 10
213.0818269556
 20
80.2387306247
 10
213.8929308593
 20
80.7614935571
 10
214.7457553211
 20
81.2276708847
 10
215.6376170398
 20
81.6357958412
 10
216.5657098884
 20
81.9845843146
 10
217.5271137436
 20
82.2729388871
 10
218.5188036731
 20
82.4999522887
 10
219.5376594535
 20
82.6649102512
 10
220.5804753875
 20
82.7672937558
 10
221.6439703904
 20
82.8067806661
 10
222.7247983136
 20
82.7832467418
 10
223.8195584724
 20
82.6967660292
 10
224.9248063465
 20
82.5476106286
 10
226.037064417
 20
82.3362498382
 10
227.1528331086
 20
82.0633486772
 10
228.2686018002
 20
81.7297657935
 10
229.3808598707
 20
81.3365507624
 10
230.4861077447
 20
80.8849407838
 10
231.5808679036
 20
80.3763567899
 10
232.6616958267
 20
79.8123989739
 10
233.7251908297
 20
79.1948417558
 10
234.7680067637
 20
78.5256281991
 10
235.7868625441
 20
77.8068638973
 10
236.7785524735
 20
77.0408103487
 10
237.7399563287
 20
76.2298778413
 10
238.6680491774
 20
75.3766178687
 10
239.5599108961
 20
74.4837151024
 10
240.4127353579
 20
73.553978945
 10
241.2238392615
 20
72.5903346903
 10
241.990670574
 20
71.5958143197
 10
242.7108165604
 20
70.5735469621
 10
243.3820113749
 20
69.526749049
 10
244.0021431904
 20
68.4587141937
 10
244.5692608428
 20
67.3728028292
 10
245.08157997
 20
66.2724316343
 10
245.5374886266
 20
65.1610627838
 10
245.9355523552
 20
64.0421930554
 10
246.2745187002
 20
62.9193428272
 10
246.553321148
 20
61.7960450014
 10
246.7710824829
 20
60.6758338885
 10
246.9271175472
 20
59.5622340871
 10
247.0209353969
 20
58.4587493943
 10
247.0522408463
 20
57.368851781
 10
247.0209353969
 20
56.2959704684
 10
246.9271175472
 20
55.2434811381
 10
246.7710824829
 20
54.2146953109
 10
246.553321148
 20
53.2128499275
 10
246.2745187002
 20
52.2410971642
 10
245.9355523552
 20
51.3024945148
 10
245.5374886266
 20
50.3999951704
 10
245.08157997
 20
49.5364387278
 10
244.5692608428
 20
48.7145422551
 10
244.0021431904
 20
47.9368917426
 10
243.3820113749
 20
47.2059339666
 10
242.7108165604
 20
46.5239687907
 10
241.990670574
 20
45.8931419297
 10
241.2238392615
 20
45.3154381981
 10
240.4127353579
 20
44.7926752657
 10
239.5599108961
 20
44.3264979381
 10
238.6680491774
 20
43.9183729815
 10
237.7399563287
 20
43.5695845082
 10
236.7785524735
 20
43.2812299356
 10
235.7868625441
 20
43.0542165341
 10
234.7680067637
 20
42.8892585716
 10
233.7251908297
 20
42.786875067
 10
232.6616958267
 20
42.7473881566
 10
231.5808679036
 20
42.770922081
 10
230.4861077447
 20
42.8574027936
 10
229.3808598707
 20
43.0065581941
 10
228.2686018002
 20
43.2179189845
 10
227.1528331086
 20
43.4908201456
 10
226.037064417
 20
43.8244030292
 10
224.9248063465
 20
44.2176180603
 10
223.8195584724
 20
44.6692280389
 10
223.2028539154
 20
44.9481089407
  0
ARC
  5
CB
330
1F
100
AcDbEntity
  8
0
  6
Continuous
 62
     7
370
    25
100
AcDbCircle
 10
229.7040775052
 20
68.483960257
 30
0.0
 40
22.45263835342475
100
AcDbArc
 50
180.7621153525
 51
204.2542038727
  0
ENDSEC
  0
SECTION
  2
OBJECTS
  0
DICTIONARY
  5
C
330
0
100
AcDbDictionary
281
     1
  3
ACAD_GROUP
350
D
  3
ACAD_LAYOUT
350
1A
  3
ACAD_MLINESTYLE
350
17
  3
ACAD_PLOTSETTINGS
350
19
  3
ACAD_PLOTSTYLENAME
350
E
  3
ACAD_SCALELIST
350
47
  0
DICTIONARY
  5
D
102
{ACAD_REACTORS
330
C
102
}
330
C
100
AcDbDictionary
281
     1
  0
DICTIONARY
  5
1A
102
{ACAD_REACTORS
330
C
102
}
330
C
100
AcDbDictionary
281
     1
  3
Layout1
350
1E
  3
Layout2
350
26
  3
Model
350
22
  0
DICTIONARY
  5
17
102
{ACAD_REACTORS
330
C
102
}
330
C
100
AcDbDictionary
281
     1
  3
Standard
350
18
  0
DICTIONARY
  5
19
102
{ACAD_REACTORS
330
C
102
}
330
C
100
AcDbDictionary
281
     1
  0
ACDBDICTIONARYWDFLT
  5
E
102
{ACAD_REACTORS
330
C
102
}
330
C
100
AcDbDictionary
281
     1
  3
Normal
350
F
100
AcDbDictionaryWithDefault
340
F
  0
DICTIONARY
  5
47
102
{ACAD_REACTORS
330
C
102
}
330
C
100
AcDbDictionary
281
     1
  3
A0
350
48
  3
A1
350
49
  3
A2
350
4A
  3
A3
350
4B
  3
A4
350
4C
  3
A5
350
4D
  3
A6
350
4E
  3
A7
350
4F
  3
A8
350
50
  3
A9
350
51
  3
B0
350
52
  3
B1
350
53
  3
B2
350
54
  3
B3
350
55
  3
B4
350
56
  3
B5
350
57
  3
B6
350
58
  3
B7
350
59
  3
B8
350
5A
  3
B9
350
5B
  3
C0
350
5C
  3
C1
350
5D
  3
C2
350
5E
  3
C3
350
5F
  3
C4
350
60
  3
C5
350
61
  3
C6
350
62
  3
C7
350
63
  3
C8
350
64
  3
C9
350
65
  3
D0
350
66
  3
D1
350
67
  3
D2
350
68
  0
LAYOUT
  5
1E
102
{ACAD_REACTORS
330
1A
102
}
330
1A
100
AcDbPlotSettings
  1

  2
none_device
  4

  6

 40
0.0
 41
0.0
 42
0.0
 43
0.0
 44
0.0
 45
0.0
 46
0.0
 47
0.0
 48
0.0
 49
0.0
140
0.0
141
0.0
142
1.0
143
1.0
 70
   688
 72
     1
 73
     0
 74
     5
  7

 75
    16
147
1.0
148
0.0
149
0.0
100
AcDbLayout
  1
Layout1
 70
     1
 71
     1
 10
0.0
 20
0.0
 11
420.0
 21
297.0
 12
0.0
 22
0.0
 32
0.0
 14
1.0000000000E+20
 24
1.0000000000E+20
 34
1.0000000000E+20
 15
-1.0000000000E+20
 25
-1.0000000000E+20
 35
-1.0000000000E+20
146
0.0
 13
0.0
 23
0.0
 33
0.0
 16
1.0
 26
0.0
 36
0.0
 17
0.0
 27
1.0
 37
0.0
 76
     0
330
1B
  0
LAYOUT
  5
26
102
{ACAD_REACTORS
330
1A
102
}
330
1A
100
AcDbPlotSettings
  1

  2
none_device
  4

  6

 40
0.0
 41
0.0
 42
0.0
 43
0.0
 44
0.0
 45
0.0
 46
0.0
 47
0.0
 48
0.0
 49
0.0
140
0.0
141
0.0
142
1.0
143
1.0
 70
   688
 72
     1
 73
     0
 74
     5
  7

 75
    16
147
1.0
148
0.0
149
0.0
100
AcDbLayout
  1
Layout2
 70
     1
 71
     2
 10
0.0
 20
0.0
 11
0.0
 21
0.0
 12
0.0
 22
0.0
 32
0.0
 14
0.0
 24
0.0
 34
0.0
 15
0.0
 25
0.0
 35
0.0
146
0.0
 13
0.0
 23
0.0
 33
0.0
 16
1.0
 26
0.0
 36
0.0
 17
0.0
 27
1.0
 37
0.0
 76
     0
330
23
  0
LAYOUT
  5
22
102
{ACAD_REACTORS
330
1A
102
}
330
1A
100
AcDbPlotSettings
  1

  2
none_device
  4
Letter_(8.50_x_11.00_Inches)
  6

 40
6.35
 41
6.35
 42
6.35000508
 43
6.35000508
 44
215.9
 45
279.4
 46
0.0
 47
0.0
 48
0.0
 49
0.0
140
0.0
141
0.0
142
1.0
143
1.0
 70
  1712
 72
     1
 73
     0
 74
     0
  7

 75
     0
147
1.0
148
0.0
149
0.0
100
AcDbLayout
  1
Model
 70
     1
 71
     0
 10
0.0
 20
0.0
 11
279.4
 21
215.9
 12
0.0
 22
0.0
 32
0.0
 14
0.0
 24
0.0
 34
0.0
 15
279.4
 25
215.9
 35
0.0
146
0.0
 13
0.0
 23
0.0
 33
0.0
 16
1.0
 26
0.0
 36
0.0
 17
0.0
 27
1.0
 37
0.0
 76
     0
330
1F
331
29
  0
MLINESTYLE
  5
18
102
{ACAD_REACTORS
330
17
102
}
330
17
100
AcDbMlineStyle
  2
Standard
 70
     0
  3

 62
   256
 51
90.0
 52
90.0
 71
     2
 49
0.5
 62
   256
  6
BYLAYER
 49
-0.5
 62
   256
  6
BYLAYER
  0
ACDBPLACEHOLDER
  5
F
102
{ACAD_REACTORS
330
E
102
}
330
E
  0
SCALE
  5
48
102
{ACAD_REACTORS
330
47
102
}
330
47
100
AcDbScale
 70
     0
300
1:1
140
1.0
141
1.0
290
     1
  0
SCALE
  5
49
102
{ACAD_REACTORS
330
47
102
}
330
47
100
AcDbScale
 70
     0
300
1:2
140
1.0
141
2.0
290
     0
  0
SCALE
  5
4A
102
{ACAD_REACTORS
330
47
102
}
330
47
100
AcDbScale
 70
     0
300
1:4
140
1.0
141
4.0
290
     0
  0
SCALE
  5
4B
102
{ACAD_REACTORS
330
47
102
}
330
47
100
AcDbScale
 70
     0
300
1:5
140
1.0
141
5.0
290
     0
  0
SCALE
  5
4C
102
{ACAD_REACTORS
330
47
102
}
330
47
100
AcDbScale
 70
     0
300
1:8
140
1.0
141
8.0
290
     0
  0
SCALE
  5
4D
102
{ACAD_REACTORS
330
47
102
}
330
47
100
AcDbScale
 70
     0
300
1:10
140
1.0
141
10.0
290
     0
  0
SCALE
  5
4E
102
{ACAD_REACTORS
330
47
102
}
330
47
100
AcDbScale
 70
     0
300
1:16
140
1.0
141
16.0
290
     0
  0
SCALE
  5
4F
102
{ACAD_REACTORS
330
47
102
}
330
47
100
AcDbScale
 70
     0
300
1:20
140
1.0
141
20.0
290
     0
  0
SCALE
  5
50
102
{ACAD_REACTORS
330
47
102
}
330
47
100
AcDbScale
 70
     0
300
1:30
140
1.0
141
30.0
290
     0
  0
SCALE
  5
51
102
{ACAD_REACTORS
330
47
102
}
330
47
100
AcDbScale
 70
     0
300
1:40
140
1.0
141
40.0
290
     0
  0
SCALE
  5
52
102
{ACAD_REACTORS
330
47
102
}
330
47
100
AcDbScale
 70
     0
300
1:50
140
1.0
141
50.0
290
     0
  0
SCALE
  5
53
102
{ACAD_REACTORS
330
47
102
}
330
47
100
AcDbScale
 70
     0
300
1:100
140
1.0
141
100.0
290
     0
  0
SCALE
  5
54
102
{ACAD_REACTORS
330
47
102
}
330
47
100
AcDbScale
 70
     0
300
2:1
140
2.0
141
1.0
290
     0
  0
SCALE
  5
55
102
{ACAD_REACTORS
330
47
102
}
330
47
100
AcDbScale
 70
     0
300
4:1
140
4.0
141
1.0
290
     0
  0
SCALE
  5
56
102
{ACAD_REACTORS
330
47
102
}
330
47
100
AcDbScale
 70
     0
300
8:1
140
8.0
141
1.0
290
     0
  0
SCALE
  5
57
102
{ACAD_REACTORS
330
47
102
}
330
47
100
AcDbScale
 70
     0
300
10:1
140
10.0
141
1.0
290
     0
  0
SCALE
  5
58
102
{ACAD_REACTORS
330
47
102
}
330
47
100
AcDbScale
 70
     0
300
100:1
140
100.0
141
1.0
290
     0
  0
SCALE
  5
59
102
{ACAD_REACTORS
330
47
102
}
330
47
100
AcDbScale
 70
     0
300
1/128" = 1'-0"
140
0.0078125
141
12.0
290
     0
  0
SCALE
  5
5A
102
{ACAD_REACTORS
330
47
102
}
330
47
100
AcDbScale
 70
     0
300
1/64" = 1'-0"
140
0.015625
141
12.0
290
     0
  0
SCALE
  5
5B
102
{ACAD_REACTORS
330
47
102
}
330
47
100
AcDbScale
 70
     0
300
1/32" = 1'-0"
140
0.03125
141
12.0
290
     0
  0
SCALE
  5
5C
102
{ACAD_REACTORS
330
47
102
}
330
47
100
AcDbScale
 70
     0
300
1/16" = 1'-0"
140
0.0625
141
12.0
290
     0
  0
SCALE
  5
5D
102
{ACAD_REACTORS
330
47
102
}
330
47
100
AcDbScale
 70
     0
300
3/32" = 1'-0"
140
0.09375
141
12.0
290
     0
  0
SCALE
  5
5E
102
{ACAD_REACTORS
330
47
102
}
330
47
100
AcDbScale
 70
     0
300
1/8" = 1'-0"
140
0.125
141
12.0
290
     0
  0
SCALE
  5
5F
102
{ACAD_REACTORS
330
47
102
}
330
47
100
AcDbScale
 70
     0
300
3/16" = 1'-0"
140
0.1875
141
12.0
290
     0
  0
SCALE
  5
60
102
{ACAD_REACTORS
330
47
102
}
330
47
100
AcDbScale
 70
     0
300
1/4" = 1'-0"
140
0.25
141
12.0
290
     0
  0
SCALE
  5
61
102
{ACAD_REACTORS
330
47
102
}
330
47
100
AcDbScale
 70
     0
300
3/8" = 1'-0"
140
0.375
141
12.0
290
     0
  0
SCALE
  5
62
102
{ACAD_REACTORS
330
47
102
}
330
47
100
AcDbScale
 70
     0
300
1/2" = 1'-0"
140
0.5
141
12.0
290
     0
  0
SCALE
  5
63
102
{ACAD_REACTORS
330
47
102
}
330
47
100
AcDbScale
 70
     0
300
3/4" = 1'-0"
140
0.75
141
12.0
290
     0
  0
SCALE
  5
64
102
{ACAD_REACTORS
330
47
102
}
330
47
100
AcDbScale
 70
     0
300
1" = 1'-0"
140
1.0
141
12.0
290
     0
  0
SCALE
  5
65
102
{ACAD_REACTORS
330
47
102
}
330
47
100
AcDbScale
 70
     0
300
1-1/2" = 1'-0"
140
1.5
141
12.0
290
     0
  0
SCALE
  5
66
102
{ACAD_REACTORS
330
47
102
}
330
47
100
AcDbScale
 70
     0
300
3" = 1'-0"
140
3.0
141
12.0
290
     0
  0
SCALE
  5
67
102
{ACAD_REACTORS
330
47
102
}
330
47
100
AcDbScale
 70
     0
300
6" = 1'-0"
140
6.0
141
12.0
290
     0
  0
SCALE
  5
68
102
{ACAD_REACTORS
330
47
102
}
330
47
100
AcDbScale
 70
     0
300
1'-0" = 1'-0"
140
12.0
141
12.0
290
     0
  0
ENDSEC
  0
EOF
